kan iemand me de tabs voor gitaar uitleggen??

Moderators: Berdien, Dani, Murthul, Muurp, EvelijnS

Antwoord op onderwerpPlaats een reactie
 
 
Bartje

Berichten: 1651
Geregistreerd: 18-04-01
Woonplaats: Deventer

Link naar dit bericht Geplaatst door de TopicStarter: 15-09-01 15:39

Heb dus gister gitaar gekregen, maar kan verder nog eigenlijk helemaal niks Lachen

en nu zat ik ff stukje van Nirvana te zoeken en toen kreeg ik dit:

Come As You Are
===============
-------------------------------
-------------------------------
-------------------------------
-------------------------------
---------0---0---------2-----2-
-0-0-1-2---2---2-2-1-0---0-0--

kan iemand me uitleggen wat dit eigenlijk inhoudt en hoe'k dit moet spelen..

ik ben al zo ver dat ik (zo goed als zeker) weet dat die lijntjes de snaren zijn, bovenste de 1e, onderste de 6e (toch?)

alleen zou'k nie weten wat die cijfertjes zijn...
weet iemand dit toevallig?

_________________
<FONT COLOR="RED">-=..the unsteadiness of love sux..=-</FONT>

<font size=-1>[ Dit Bericht is bewerkt door: Bartje op 2001-09-15 17:58 ]</font>


dimmelim

Berichten: 2682
Geregistreerd: 21-02-01

Link naar dit bericht Geplaatst: 15-09-01 16:05

De 0-en en de 1-tjes wijzen normaal gesproken op de fret waar je je vinger op die snaar moet indrukken. Als er op verschillende snaren een nummertje staat moet je die dus tegelijk spelen . 0 is dus losse snaar spelen, 1 vinger op 1e fret, 2 vinger op 2e fret etc. Hmmm, het klinkt alleen totaal niet als ik het zo ff probeer. Maar ik ken Nirvana niet zo goed, misschien een intro? Of staat er nog iets bij als: spelen in een bepaalde toonsoort. Dan zou je er een capo op moeten doen op een bepaalde plek.

Liselot

Berichten: 29003
Geregistreerd: 18-06-01
Woonplaats: Almelo

Link naar dit bericht Geplaatst: 15-09-01 16:30

dit nummer van nirvana is errug makkelijk, het eerste wat ik leerde was dit nummer...
die lijntjes zijn de snaren....de onderste is de dikste.

als je dus dit hebt:
-------------
-------------
-------------
-------------
-------------
-----0------- dan moet je de dikste snaar aanslaan (met plectrum) zonder een snaar op de fret te drukken.

als je dan daarna dit hebt
----------------------------
----------------------------
----------------------------
----------------------------
----------------------------
-------0-------------1------ doe je dus eerst weer de 1e snaar zonder hem in te drukken, en daarna moet je de 1e snaar aanslaan terwijl je hem voor de 1e fret indrukt.
en zo ga je maar door....
hopelijk is het nu een beetje duidelijk.
enne...het is geen noten gedoe, maar het zijn tabs (tablature)
kussies liselot

Soraya

Berichten: 6875
Geregistreerd: 14-04-01
Woonplaats: Hoogvliet

Link naar dit bericht Geplaatst: 15-09-01 16:32

euh........ Verward Verward Verward Verward Verward Verward Verward Verward Verward Verward
kbegrijp nixxxxxxx van gitaar spelen....

Hardcore-Soldier
Hardcore-fan#18
Respect2all

Bartje

Berichten: 1651
Geregistreerd: 18-04-01
Woonplaats: Deventer

Link naar dit bericht Geplaatst door de TopicStarter: 15-09-01 16:58

Zo dacht ik het zelf dus ook.. en ook zo geprobeerd.. maar het klonk absoluut nie Verward
ligt dat nou aan deze tabs of aan mij? Scheve mond\

dimmelim

Berichten: 2682
Geregistreerd: 21-02-01

Link naar dit bericht Geplaatst: 15-09-01 17:16

Nee klopt, zo klinkt het niet. wat ik denk is dat je ergens een capo op moet doen. Op je bladmuziek zou moeten staan waar. Als dat het niet is... andere bladmuziek zoeken. Succes!

aha, hier iets gevonden:Come As You Are
<b>Tune down 1 whole step</b>

Je moet je gitaar dus anders stemmen om zo te kunnen spelen. Wat " one whole step" is weet ik alleen niet. Iemand?

misschien moet je anders gewoon een ander liedje proberen:
http://bsd.liiv.ee/nirvana/tab/k_nevermind.txt

intro
e----------------------------------------------------------------------------
b----------------------------------------------------------------------------
g----------------------------------------------------------------------------
d----------------------------------------------------------------------------
a-------------0----0-------------2----------2--------------------------------
e--0--0--1--2----2---2--2--1--0-----0--0------0--1---------------------------

e----------------------------------------------------------------------------
b----------------------------------------------------------------------------
g----------------------------------------------------------------------------
d----------------------------------------------------------------------------
a----0---0--------------2--------2-------------------------------------------
e--2----2---2--2--1--0-----0--0----0--1--------------------------------------

verse
e----------------------------------------------------------------------------
b----------------------------------------------------------------------------
g----------------------------------------------------------------------------
d----------------------------------------------------------------------------
a-----0----0-------------2-------2-------------------------------------------
e--2----2----2--2--1--0----0--0-----0--1-------------------------------------

play that 9 times, then
e--------------------------------0--0--0--0----------------------------------
b--------------------------------0--0--0--0----------------------------------
g--------------------------------1--1--1--1----------------------------------
d----------------------------------------------------------------------------
a----0-----0-----------2-----------------------------------------------------
e--2----2-----2--1--0------0-------------------------------------------------

chorus
e--------0-------------------------------------------------------------------
b--------0---------------2-----2-----2-----2---------------------------------
g---------------------2--2--2--2--2--2--2--2--0------------------------------
d--4---------4--4-----2--2--2--2--2--2--2--2--0------------------------------
a--4---------4--4--0--0-----0-----0-----0-----0------------------------------
e--2---------2--2--0---------------------------------------------------------

play that 3 times, then
e--------0-------------------------------------------------------------------
b--------0---------------2-----2---------------------------------------------
g---------------------2--2--2--2--2------------------------------------------
d--4---------4--4-----2--2--2--2--2------------------------------------------
a--4---------4--4--0--0-----0-----0------------------------------------------
e--2---------2--2--0--------------------0--0--1--2---------------------------

bridge
e---------------------0--0--0-0-0-0------------------------------------------
b------------------0--3--3--3-3-3--------------------------------------------
g--4--4--4--4-4-4--0--2--2------2--------------------------------------------
d--4--4--4--4-4-4--0--0--0------0--------------------------------------------
a--2--2--2--2-2-2--0---------------------------------------------------------
e----------------------------------------------------------------------------

play that 3 times, then
e---------------------0--0--0--0---------------------------------------------
b------------------0--3--3--3--3---------------------------------------------
g--4--4--4--4-4-4--0--2--2-----2---------------------------------------------
d--4--4--4--4-4-4--0--0--0-----0---------------------------------------------
a--2--2--2--2-2-2--0---------------------------------------------------------
e----------------------------------------------------------------------------

solo
e----------------------------------------------------------------------------
b-----------------------------------------------------------12)--------------
g--2--2--6~~~--9--116--6~~~--9--116--6~~~--9--11--11--11--11~~--9--6-------
d----------------------------------------------------------------------------
a----------------------------------------------------------------------------
e----------------------------------------------------------------------------

then
e----------------------------------------------------------------------------
b-----------------------------------------------------12)--------------------
g--6~~~--9--116--6~~~--9--116--6~~~--9--11--11--11--11~~--9----------------
d----------------------------------------------------------------------------
a----------------------------------------------------------------------------
e----------------------------------------------------------------------------

play that 3 times
end
e--0-------------------------------------------------------------------------
b--0-------------------------------------------------------------------------
g--x-------------------------------------------------------------------------
d--4-------------------------------------------------------------------------
a--4-------------------------------------------------------------------------
e--2-------------------------------------------------------------------------



------------------------------------------------------------------------



Breed
intro
(this is actually a studio effect, but when played live, kurt taps the back
of the neck of the guitar, to achieve that sound
e----------------------------------------------------------------------------
b----------------------------------------------------------------------------
g----------------------------------------------------------------------------
d---------------)-----------------)------------------------------------------
a--4--4-----4--7-----4--4-----4--7-------------------------------------------
e--2--2--0--2--5--0--2--2--0--2--5--0----------------------------------------

play that 12 times.
verse
e----------------------------------------------------------------------------
b----------------------------------------------------------------------------
g--11-11-11-11-11-11-11-11-11-11-11-11-11-11-11-11-11-11-11-11-11-11-11-11---
d--11-11-11-11-11-11-11-11-11-11-11-11-11-11-11-11-11-11-11-11-11-11-11-11---
a---9--9--9--9--9--9--9--9--9--9--9--9--9--9--9--9--9--9--9--9--9--9--9--9---
e----------------------------------------------------------------------------

e----------------------------------------------------------------------------
b----------------------------------------------------------------------------
g--11-11-11---)--------------------------------------------------------------
d--11-11-11--9---9--7--------------------------------------------------------
a---9--9--9------------------------------------------------------------------
e----------------------------------------------------------------------------

e----------------------------------------------------------------------------
b----------------------------------------------------------------------------
g--11-11-11-11-11-11-11-11-11-11-11-11-11-11-11-11-11-11-11-11-11-11-11-----
d--11-11-11-11-11-11-11-11-11-11-11-11-11-11-11-11-11-11-11-11-11-11-11-----
a---9--9--9--9--9--9--9--9--9--9--9--9--9--9--9--9--9--9--9--9--9--9--9-----
e----------------------------------------------------------------------------

e----------------------------------------------------------------------------
b----------------------------------------------------------------------------
g----------------------------------------------------------------------------
d--4-4-4-4-4-4-4-4-----------------------------------------------------------
a--4-4-4-4-4-4-4-4-----------------------------------------------------------
e--2-2-2-2-2-2-2-2-----------------------------------------------------------

chorus
e----------------------------------------------------------------------------
b--3--3---------------------------3--3---------------------------------------
g--2--2-0-2--2-0--5--5-0--4--4-0--2--2--0-2--2-0--5--5-0--4--4-4-------------
d--0--0-0-2--2-0--5--5-0--4--4-0--0--0--0-2--2-0--5--5-0--4--4-4-------------
a-------0-0--0-0--3--3-0--2--2-0--------0-0--0-0--3--3-0--2--2-2-------------
e----------------------------------------------------------------------------

play that 2 times, then
e----------------------------------------------------------------------------
b----------------------------------------------------------------------------
g----------------------------------------------------------------------------
d---------------)-----------------)-----------------)-----------------)------
a--4--4-----4--7-----4--4-----4--7-----4--4-----4--7-----4--4-----4--7-------
e--2--2--0--2--5--0--2--2--0--2--5--0--2--2--0--2--5--0--2--2--0--2--5--0----

solo
e----------------------------------------------------------------------------
b----------------------------------------------------------------------------
g--11--11--11--11---11--11--11--11---11--11--11--11---11--10--9--7----------
d----------------------------------------------------------------------------
a---9---9---9---9----9---9---9---9----9---9---9---9----9---8--7--5----------
e----------------------------------------------------------------------------
Trem------------------------------------------------------------

e----------------------------------------------------------------------------
b----------------------------------------------------------------------------
g--/14--14--14--14---14--14--14--14---14--14--14--14---14--13-12-(12)-------
d----------------------------------------------------------------------------
a--/12--12--12--12---12--12--12--12---12--12--12--12---12--11-10-(10)-------
e----------------------------------------------------------------------------
Trem---------------------------------------------------------------

e----------------------------------------------------------------------------
b-----------------------(18)----(18)-----(18)(18)-----(18)-------------------
g--/17--17--17--17---17--17--17--17---17--17--17--17---17--18--16--15--14---
d----------------------------------------------------------------------------
a--/15--15--15--15---15--15--15--15---15--15--15--15---15--16--14--13--12---
e----------------------------------------------------------------------------
Trem-------------------------------------------------------------------

e----------------------------------------------------------------------------
b----------------------------------------------------------------------------
g--/19--19--19--19---19--19--19--19---19--19--19--19---20--20--21--21--22--22
d----------------------------------------------------------------------------
a--/17--17--17--17---17--17--17--17---17--17--17--17---18--18--19--19--20--20
e----------------------------------------------------------------------------
Trem----------------------------------------------------------------------

end
e----------------------------------------------------------------------------
b----------------------------------------------------------------------------
g----------------------------------------------------------------------------
d--4-------------------------------------------------------------------------
a--4-------------------------------------------------------------------------
e--2-------------------------------------------------------------------------



------------------------------------------------------------------------

Jan_324
Berichten: 6933
Geregistreerd: 09-01-01

Link naar dit bericht Geplaatst: 15-09-01 20:24

ehhh?? waarom zo moeilijk en waarom geen grepen en noten erbij??

scooby

Berichten: 5736
Geregistreerd: 14-01-01
Woonplaats: Amsterdam

Link naar dit bericht Geplaatst: 15-09-01 20:27

woow dit snap ik dus ook niet!!
woops hebben die twee jaar gitaarles niet echt goedgedaan...

Jan_324
Berichten: 6933
Geregistreerd: 09-01-01

Link naar dit bericht Geplaatst: 15-09-01 20:30

ik heb 1 jaar gitaar gerammeld en kon het redelijk al zeg ik het zelf maar hier snap ik nix van..

Liselot

Berichten: 29003
Geregistreerd: 18-06-01
Woonplaats: Almelo

Link naar dit bericht Geplaatst: 16-09-01 10:19

het is eigenlijk helemaal nie zo heel erg moeilijk
bij dit nummer heb je geen grepen(accoorden) die je moet aanslaan....alleen aparte snaren, daarom ziet het er zo ingewikkeld uit.....
misschien heb je in het refrein wel een paar accoorden....maar het refrein is best moeilijk....
begin anders met metallica - nothing else mathers.... die is pas makkelijk.
kus liselot

Liselot

Berichten: 29003
Geregistreerd: 18-06-01
Woonplaats: Almelo

Link naar dit bericht Geplaatst: 16-09-01 10:26

als ik het helemaal makkelijk wil uitleggen doe ik het zo

dit zijn de 2 dikste snaren, dat zijn dus de enigen die je nodig hebt...

----------------------0--------0------------------2----------2
---0---0---1---2------2-------2---2---1---0-----0---0

probeer hem zo maar eens....zo moet hij dus klinken en dat moet je een paar keer herhalen....download het nummer maar eens dan kan je horen hoe je hem moet spelen.
kus liselot

_________________
ik is ik en ik is LiSSy

<font size=-1>[ Dit Bericht is bewerkt door: LiSSy op 2001-09-16 11:29 ]</font>

Bartje

Berichten: 1651
Geregistreerd: 18-04-01
Woonplaats: Deventer

Link naar dit bericht Geplaatst door de TopicStarter: 16-09-01 10:42

ik kan hem nu al Tong uitsteken (het begin stukje dan..)

mn broer heeft hem me geleerd en stukje van Metallica - Nothing else matters is 't begin idd super simpel maar het 2e gedeelte ken'k nie.. en het 3e gedeelte ken'k nu redelijk Tong uitsteken

en dat voor mn 2e dag Knipoog

pepper
Berichten: 124
Geregistreerd: 28-02-01
Woonplaats: werkendam

Link naar dit bericht Geplaatst: 16-09-01 13:08

het klinkt niet , omdat het niet klopt wat er staat, komt waarschijnlijk omdat de streepjes minder plaats i nemen dan de cijfers, waardoor de cijfers die na een hoop streepjes staan op de verkeerde plaats komen. btw dimmelim, de toonsoort heeft totaal geen invloed op of het klopt of niet, een onvermogensklem (capo) is iets wat je je trouwens ook niet moet aanleren.ik zal eens proberen het goed neer te zetten.
E=+++++++++++++++++
B=+++++++++++++++++
G=+++++++++++++++++
D=+++++++++++++++++
A=++++0++0+++++22++
E=0012++2++2210++00

<font size=-1>[ Dit Bericht is bewerkt door: pepper op 2001-09-16 14:09 ]</font>

<font size=-1>[ Dit Bericht is bewerkt door: pepper op 2001-09-16 14:10 ]</font>

pepper
Berichten: 124
Geregistreerd: 28-02-01
Woonplaats: werkendam

Link naar dit bericht Geplaatst: 16-09-01 13:16

Citaat:
Op 2001-09-15 18:16, schreef dimmelim:

aha, hier iets gevonden:Come As You Are
<b>Tune down 1 whole step</b>

Je moet je gitaar dus anders stemmen om zo te kunnen spelen. Wat " one whole step" is weet ik alleen niet. Iemand?


Je gitaar helemaal 1 noot omlaag stemmen.dus E word Es, A word Gis, D word Cis, G word Fis, B word Bes, E word Es.
dit moet je alleen doen als je het nummer in de zelfde toonsoort wil spelen als de orginele uitvoering( als je met de cd mee wil spelen bv) als je gewoon lekker voor jezelf aan het spelen bent moet je dit niet doen, het maakt dan helemaal niets it.


Antwoord op onderwerpPlaats een reactie

Wie is er online

Gebruikers op dit forum: _Nadia_, BlondCowgirl, Ensueno, evilkaasje, ievie, ilaan, jesvoltige, Macyy, marindexo, Marrjjollein, mooney, oester, scoebje, Steeph en 121 bezoekers